ISO-10303-21;
HEADER;
FILE_DESCRIPTION (( 'STEP AP203' ),
    '1' );
FILE_NAME ('BK7-LNPBSP-12.7-633.STEP',
    '2020-12-22T04:11:43',
    ( '' ),
    ( '' ),
    'SwSTEP 2.0',
    'SolidWorks 2020',
    '' );
FILE_SCHEMA (( 'CONFIG_CONTROL_DESIGN' ));
ENDSEC;

DATA;
#1 = APPROVAL_STATUS ( 'not_yet_approved' ) ;
#2 = COORDINATED_UNIVERSAL_TIME_OFFSET ( 8, 0, .AHEAD. ) ;
#3 = PERSON_AND_ORGANIZATION_ROLE ( 'design_owner' ) ;
#4 = CC_DESIGN_PERSON_AND_ORGANIZATION_ASSIGNMENT ( #30, #123, ( #11 ) ) ;
#5 = CLOSED_SHELL ( 'NONE', ( #109, #144, #92, #14 ) ) ;
#6 = CARTESIAN_POINT ( 'NONE',  ( 2.999999999999999112, 7.776507174585692163E-16, -6.349999999999999645 ) ) ;
#7 = VERTEX_POINT ( 'NONE', #6 ) ;
#8 = CC_DESIGN_DATE_AND_TIME_ASSIGNMENT ( #101, #150, ( #11 ) ) ;
#9 = CARTESIAN_POINT ( 'NONE',  ( 2.999999999999999112, 0.000000000000000000, 0.000000000000000000 ) ) ;
#10 = MECHANICAL_CONTEXT ( 'NONE', #162, 'mechanical' ) ;
#11 = SECURITY_CLASSIFICATION ( '', '', #93 ) ;
#12 = CARTESIAN_POINT ( 'NONE',  ( -4.102566777143633281E-16, 7.776507174585692163E-16, -6.349999999999999645 ) ) ;
#13 = PLANE ( 'NONE',  #118 ) ;
#14 = ADVANCED_FACE ( 'NONE', ( #110 ), #36, .F. ) ;
#15 = DIRECTION ( 'NONE',  ( -1.000000000000000000, -0.000000000000000000, -0.000000000000000000 ) ) ;
#16 = DATE_AND_TIME ( #137, #139 ) ;
#17 = COORDINATED_UNIVERSAL_TIME_OFFSET ( 8, 0, .AHEAD. ) ;
#18 = AXIS2_PLACEMENT_3D ( 'NONE', #100, #49, #77 ) ;
#19 = COORDINATED_UNIVERSAL_TIME_OFFSET ( 8, 0, .AHEAD. ) ;
#20 = ORIENTED_EDGE ( 'NONE', *, *, #111, .T. ) ;
#21 = EDGE_CURVE ( 'NONE', #106, #168, #107, .T. ) ;
#22 = EDGE_LOOP ( 'NONE', ( #71, #128 ) ) ;
#23 = MANIFOLD_SOLID_BREP ( 'Ðý×', #5 ) ;
#24 = CIRCLE ( 'NONE', #160, 6.349999999999999645 ) ;
#25 = PRODUCT_DEFINITION_SHAPE ( 'NONE', 'NONE',  #50 ) ;
#26 = CIRCLE ( 'NONE', #138, 6.349999999999999645 ) ;
#27 = DIRECTION ( 'NONE',  ( -1.000000000000000000, 0.000000000000000000, -0.000000000000000000 ) ) ;
#28 = DIRECTION ( 'NONE',  ( -1.000000000000000000, -0.000000000000000000, -0.000000000000000000 ) ) ;
#29 = CIRCLE ( 'NONE', #18, 6.349999999999999645 ) ;
#30 = PERSON_AND_ORGANIZATION ( #146, #174 ) ;
#31 = CC_DESIGN_APPROVAL ( #85, ( #50 ) ) ;
#32 = PRODUCT_RELATED_PRODUCT_CATEGORY ( 'detail', '', ( #87 ) ) ;
#33 = DATE_AND_TIME ( #34, #68 ) ;
#34 = CALENDAR_DATE ( 2020, 22, 12 ) ;
#35 = EDGE_LOOP ( 'NONE', ( #83, #47 ) ) ;
#36 = PLANE ( 'NONE',  #142 ) ;
#37 = APPROVAL ( #45, 'UNSPECIFIED' ) ;
#38 = VERTEX_POINT ( 'NONE', #134 ) ;
#39 = CC_DESIGN_DATE_AND_TIME_ASSIGNMENT ( #33, #81, ( #50 ) ) ;
#40 = CYLINDRICAL_SURFACE ( 'NONE', #129, 6.349999999999999645 ) ;
#41 = CARTESIAN_POINT ( 'NONE',  ( 0.000000000000000000, 0.000000000000000000, 6.349999999999999645 ) ) ;
#42 = DIRECTION ( 'NONE',  ( 0.000000000000000000, 0.000000000000000000, 1.000000000000000000 ) ) ;
#43 = APPROVAL_PERSON_ORGANIZATION ( #78, #37, #44 ) ;
#44 = APPROVAL_ROLE ( '' ) ;
#45 = APPROVAL_STATUS ( 'not_yet_approved' ) ;
#46 = PERSON_AND_ORGANIZATION_ROLE ( 'design_supplier' ) ;
#47 = ORIENTED_EDGE ( 'NONE', *, *, #158, .F. ) ;
#48 = ORIENTED_EDGE ( 'NONE', *, *, #158, .T. ) ;
#49 = DIRECTION ( 'NONE',  ( -1.000000000000000000, -0.000000000000000000, -0.000000000000000000 ) ) ;
#50 = PRODUCT_DEFINITION ( 'UNKNOWN', '', #167, #135 ) ;
#51 =( NAMED_UNIT ( * ) SI_UNIT ( $, .STERADIAN. ) SOLID_ANGLE_UNIT ( ) );
#52 = CARTESIAN_POINT ( 'NONE',  ( 2.999999999999999556, 6.349999999999999645, 0.000000000000000000 ) ) ;
#53 = PERSON_AND_ORGANIZATION ( #146, #174 ) ;
#54 = APPROVAL_ROLE ( '' ) ;
#55 = CALENDAR_DATE ( 2020, 22, 12 ) ;
#56 = CC_DESIGN_PERSON_AND_ORGANIZATION_ASSIGNMENT ( #91, #3, ( #87 ) ) ;
#57 = ORIENTED_EDGE ( 'NONE', *, *, #111, .F. ) ;
#58 = DIRECTION ( 'NONE',  ( -1.000000000000000000, -0.000000000000000000, -0.000000000000000000 ) ) ;
#59 = APPROVAL_PERSON_ORGANIZATION ( #53, #149, #54 ) ;
#60 = DIRECTION ( 'NONE',  ( -0.000000000000000000, 0.000000000000000000, 1.000000000000000000 ) ) ;
#61 = CARTESIAN_POINT ( 'NONE',  ( -4.102566777143633281E-16, 0.000000000000000000, 0.000000000000000000 ) ) ;
#62 = DIRECTION ( 'NONE',  ( 0.000000000000000000, 0.000000000000000000, 1.000000000000000000 ) ) ;
#63 = EDGE_CURVE ( 'NONE', #7, #168, #172, .T. ) ;
#64 = CARTESIAN_POINT ( 'NONE',  ( -4.102566777143633281E-16, 0.000000000000000000, 6.349999999999999645 ) ) ;
#65 = APPROVAL_ROLE ( '' ) ;
#66 = PERSON_AND_ORGANIZATION ( #146, #174 ) ;
#67 = APPROVAL_DATE_TIME ( #104, #149 ) ;
#68 = LOCAL_TIME ( 12, 11, 43.00000000000000000, #17 ) ;
#69 = ORIENTED_EDGE ( 'NONE', *, *, #63, .T. ) ;
#70 = DIRECTION ( 'NONE',  ( 0.000000000000000000, 0.000000000000000000, -1.000000000000000000 ) ) ;
#71 = ORIENTED_EDGE ( 'NONE', *, *, #21, .T. ) ;
#72 = ORIENTED_EDGE ( 'NONE', *, *, #154, .T. ) ;
#73 = AXIS2_PLACEMENT_3D ( 'NONE', #88, #99, #157 ) ;
#74 = CC_DESIGN_PERSON_AND_ORGANIZATION_ASSIGNMENT ( #66, #136, ( #50 ) ) ;
#75 = CARTESIAN_POINT ( 'NONE',  ( 0.000000000000000000, 0.000000000000000000, 0.000000000000000000 ) ) ;
#76 = CC_DESIGN_SECURITY_CLASSIFICATION ( #11, ( #167 ) ) ;
#77 = DIRECTION ( 'NONE',  ( 0.000000000000000000, 0.000000000000000000, 1.000000000000000000 ) ) ;
#78 = PERSON_AND_ORGANIZATION ( #146, #174 ) ;
#79 = APPLICATION_PROTOCOL_DEFINITION ( 'international standard', 'config_control_design', 1994, #112 ) ;
#80 = COORDINATED_UNIVERSAL_TIME_OFFSET ( 8, 0, .AHEAD. ) ;
#81 = DATE_TIME_ROLE ( 'creation_date' ) ;
#82 = CC_DESIGN_APPROVAL ( #37, ( #167 ) ) ;
#83 = ORIENTED_EDGE ( 'NONE', *, *, #154, .F. ) ;
#84 = ORIENTED_EDGE ( 'NONE', *, *, #21, .F. ) ;
#85 = APPROVAL ( #163, 'UNSPECIFIED' ) ;
#86 = CARTESIAN_POINT ( 'NONE',  ( -2.051283388571816641E-16, 6.349999999999999645, 0.000000000000000000 ) ) ;
#87 = PRODUCT ( 'BK7-LNPBSP-12.7-633', 'BK7-LNPBSP-12.7-633', '', ( #10 ) ) ;
#88 = CARTESIAN_POINT ( 'NONE',  ( 0.000000000000000000, 0.000000000000000000, 0.000000000000000000 ) ) ;
#89 = CC_DESIGN_PERSON_AND_ORGANIZATION_ASSIGNMENT ( #152, #151, ( #167 ) ) ;
#90 = DIRECTION ( 'NONE',  ( 0.000000000000000000, 0.000000000000000000, 1.000000000000000000 ) ) ;
#91 = PERSON_AND_ORGANIZATION ( #146, #174 ) ;
#92 = ADVANCED_FACE ( 'NONE', ( #173 ), #13, .F. ) ;
#93 = SECURITY_CLASSIFICATION_LEVEL ( 'unclassified' ) ;
#94 = CALENDAR_DATE ( 2020, 22, 12 ) ;
#95 = PERSON_AND_ORGANIZATION ( #146, #174 ) ;
#96 = COORDINATED_UNIVERSAL_TIME_OFFSET ( 8, 0, .AHEAD. ) ;
#97 = APPROVAL_PERSON_ORGANIZATION ( #95, #85, #65 ) ;
#98 = ORIENTED_EDGE ( 'NONE', *, *, #103, .F. ) ;
#99 = DIRECTION ( 'NONE',  ( 0.000000000000000000, 0.000000000000000000, 1.000000000000000000 ) ) ;
#100 = CARTESIAN_POINT ( 'NONE',  ( -4.102566777143633281E-16, 0.000000000000000000, 0.000000000000000000 ) ) ;
#101 = DATE_AND_TIME ( #122, #113 ) ;
#102 = AXIS2_PLACEMENT_3D ( 'NONE', #114, #148, #62 ) ;
#103 = EDGE_CURVE ( 'NONE', #168, #106, #29, .T. ) ;
#104 = DATE_AND_TIME ( #55, #120 ) ;
#105 = APPROVAL_DATE_TIME ( #125, #85 ) ;
#106 = VERTEX_POINT ( 'NONE', #64 ) ;
#107 = CIRCLE ( 'NONE', #169, 6.349999999999999645 ) ;
#108 = UNCERTAINTY_MEASURE_WITH_UNIT (LENGTH_MEASURE( 1.000000000000000082E-05 ), #175, 'distance_accuracy_value', 'NONE');
#109 = ADVANCED_FACE ( 'NONE', ( #133 ), #161, .T. ) ;
#110 = FACE_OUTER_BOUND ( 'NONE', #22, .T. ) ;
#111 = EDGE_CURVE ( 'NONE', #38, #106, #121, .T. ) ;
#112 = APPLICATION_CONTEXT ( 'configuration controlled 3d designs of mechanical parts and assemblies' ) ;
#113 = LOCAL_TIME ( 12, 11, 43.00000000000000000, #80 ) ;
#114 = CARTESIAN_POINT ( 'NONE',  ( 0.000000000000000000, 0.000000000000000000, 0.000000000000000000 ) ) ;
#115 = DIRECTION ( 'NONE',  ( -1.000000000000000000, -0.000000000000000000, -0.000000000000000000 ) ) ;
#116 =( NAMED_UNIT ( * ) PLANE_ANGLE_UNIT ( ) SI_UNIT ( $, .RADIAN. ) );
#117 = DIRECTION ( 'NONE',  ( 0.000000000000000000, 0.000000000000000000, 1.000000000000000000 ) ) ;
#118 = AXIS2_PLACEMENT_3D ( 'NONE', #52, #27, #60 ) ;
#119 = LOCAL_TIME ( 12, 11, 43.00000000000000000, #96 ) ;
#120 = LOCAL_TIME ( 12, 11, 43.00000000000000000, #2 ) ;
#121 = LINE ( 'NONE', #41, #153 ) ;
#122 = CALENDAR_DATE ( 2020, 22, 12 ) ;
#123 = PERSON_AND_ORGANIZATION_ROLE ( 'classification_officer' ) ;
#124 =( GEOMETRIC_REPRESENTATION_CONTEXT ( 3 ) GLOBAL_UNCERTAINTY_ASSIGNED_CONTEXT ( ( #108 ) ) GLOBAL_UNIT_ASSIGNED_CONTEXT ( ( #175, #116, #51 ) ) REPRESENTATION_CONTEXT ( 'NONE', 'WORKASPACE' ) );
#125 = DATE_AND_TIME ( #94, #119 ) ;
#126 = EDGE_LOOP ( 'NONE', ( #127, #48, #20, #98 ) ) ;
#127 = ORIENTED_EDGE ( 'NONE', *, *, #63, .F. ) ;
#128 = ORIENTED_EDGE ( 'NONE', *, *, #103, .T. ) ;
#129 = AXIS2_PLACEMENT_3D ( 'NONE', #75, #28, #117 ) ;
#130 = CARTESIAN_POINT ( 'NONE',  ( 0.000000000000000000, 7.776507174585692163E-16, -6.349999999999999645 ) ) ;
#131 = APPLICATION_PROTOCOL_DEFINITION ( 'international standard', 'config_control_design', 1994, #162 ) ;
#132 = ADVANCED_BREP_SHAPE_REPRESENTATION ( 'BK7-LNPBSP-12.7-633', ( #23, #73 ), #124 ) ;
#133 = FACE_OUTER_BOUND ( 'NONE', #166, .T. ) ;
#134 = CARTESIAN_POINT ( 'NONE',  ( 2.999999999999999112, 0.000000000000000000, 6.349999999999999645 ) ) ;
#135 = DESIGN_CONTEXT ( 'detailed design', #112, 'design' ) ;
#136 = PERSON_AND_ORGANIZATION_ROLE ( 'creator' ) ;
#137 = CALENDAR_DATE ( 2020, 22, 12 ) ;
#138 = AXIS2_PLACEMENT_3D ( 'NONE', #9, #147, #42 ) ;
#139 = LOCAL_TIME ( 12, 11, 43.00000000000000000, #19 ) ;
#140 = PERSON_AND_ORGANIZATION ( #146, #174 ) ;
#141 = DIRECTION ( 'NONE',  ( 1.000000000000000000, 0.000000000000000000, 0.000000000000000000 ) ) ;
#142 = AXIS2_PLACEMENT_3D ( 'NONE', #86, #141, #70 ) ;
#143 = CC_DESIGN_APPROVAL ( #149, ( #11 ) ) ;
#144 = ADVANCED_FACE ( 'NONE', ( #171 ), #40, .T. ) ;
#145 = DIRECTION ( 'NONE',  ( -1.000000000000000000, -0.000000000000000000, -0.000000000000000000 ) ) ;
#146 = PERSON ( 'UNSPECIFIED', 'UNSPECIFIED', 'UNSPECIFIED', ('UNSPECIFIED'), ('UNSPECIFIED'), ('UNSPECIFIED') ) ;
#147 = DIRECTION ( 'NONE',  ( -1.000000000000000000, -0.000000000000000000, -0.000000000000000000 ) ) ;
#148 = DIRECTION ( 'NONE',  ( -1.000000000000000000, -0.000000000000000000, -0.000000000000000000 ) ) ;
#149 = APPROVAL ( #1, 'UNSPECIFIED' ) ;
#150 = DATE_TIME_ROLE ( 'classification_date' ) ;
#151 = PERSON_AND_ORGANIZATION_ROLE ( 'creator' ) ;
#152 = PERSON_AND_ORGANIZATION ( #146, #174 ) ;
#153 = VECTOR ( 'NONE', #58, 1000.000000000000000 ) ;
#154 = EDGE_CURVE ( 'NONE', #38, #7, #26, .T. ) ;
#155 = VECTOR ( 'NONE', #15, 1000.000000000000000 ) ;
#156 = CARTESIAN_POINT ( 'NONE',  ( 2.999999999999999112, 0.000000000000000000, 0.000000000000000000 ) ) ;
#157 = DIRECTION ( 'NONE',  ( 1.000000000000000000, 0.000000000000000000, 0.000000000000000000 ) ) ;
#158 = EDGE_CURVE ( 'NONE', #7, #38, #24, .T. ) ;
#159 = DIRECTION ( 'NONE',  ( 0.000000000000000000, 0.000000000000000000, 1.000000000000000000 ) ) ;
#160 = AXIS2_PLACEMENT_3D ( 'NONE', #156, #145, #159 ) ;
#161 = CYLINDRICAL_SURFACE ( 'NONE', #102, 6.349999999999999645 ) ;
#162 = APPLICATION_CONTEXT ( 'configuration controlled 3d designs of mechanical parts and assemblies' ) ;
#163 = APPROVAL_STATUS ( 'not_yet_approved' ) ;
#164 = SHAPE_DEFINITION_REPRESENTATION ( #25, #132 ) ;
#165 = APPROVAL_DATE_TIME ( #16, #37 ) ;
#166 = EDGE_LOOP ( 'NONE', ( #72, #69, #84, #57 ) ) ;
#167 = PRODUCT_DEFINITION_FORMATION_WITH_SPECIFIED_SOURCE ( 'ANY', '', #87, .NOT_KNOWN. ) ;
#168 = VERTEX_POINT ( 'NONE', #12 ) ;
#169 = AXIS2_PLACEMENT_3D ( 'NONE', #61, #115, #90 ) ;
#170 = CC_DESIGN_PERSON_AND_ORGANIZATION_ASSIGNMENT ( #140, #46, ( #167 ) ) ;
#171 = FACE_OUTER_BOUND ( 'NONE', #126, .T. ) ;
#172 = LINE ( 'NONE', #130, #155 ) ;
#173 = FACE_OUTER_BOUND ( 'NONE', #35, .T. ) ;
#174 = ORGANIZATION ( 'UNSPECIFIED', 'UNSPECIFIED', '' ) ;
#175 =( LENGTH_UNIT ( ) NAMED_UNIT ( * ) SI_UNIT ( .MILLI., .METRE. ) );
ENDSEC;
END-ISO-10303-21;
